Gabriel's Oboe (fingerstyle) by Ennio Morricone Tablature Preview
Play this tab!
E|-------------------5----|-------------------------------|-------------------------------------------|
B|------------------------|----0--------------------------|-3---5-3-2-3-2--3--2--0--0-----------------|
G|------------------------|-2-----2--0--2----2--------2---|-2-----------------------2---2--2--2-------|
D|-7------------7---------|-4----------------5------------|-4-----------0-----------0-------------0---|
A|----------7-------------|-5----------------5----4-------|-----------------------------------4---2---|
E|------5-----------------|------------------0----0-------|-2-----------2-----------3---------5-------|


E|------------------0---------------|------------------------------|----------------------------------|
B|--------------3------3--2---3--2--|-0------------0---3---2---0---|----------------------------------|
G|-2--------2---2-------------------|-0----0-------0---------------|-2---0---2---2-------2--------2---|
D|-2----2-------0---------0---------|-0--------4-----------0-------|-5---------------4---2----2-------|
A|-4--------------------------------|-2----2---0---2-------2-------|-5-------------------4----0-------|
E|-3------------2---------2---------|-2----2---2---2-------3-------|-0--------------------------------|


E|-2---0---0--------------------|-2---------------------------------|-----------------------3---|
B|-3-----------3---3------------|----5--5--3--3----3--------2-3-2-3-|-0---------0---0---3-------|
G|-2-------2-------2--------2---|-2-----------2----2----2-----------|-2----0--------------------|
D|-0-------0-------4----4-------|-4-----------4----4----4-----------|-0----0----4-----------2---|
A|-----------------4----0-------|-2-----------2----0----0-----------|---------------------------|
E|------------------------------|-----------------------------------|-3----3----3---------------|


E|-3---2---2--------------7--|-7---------7------------|---------------------|---------------------|
B|---------------------------|-10---8---------7---10--|-10------------------|-10------------------|
G|-2-------2----2----7-------|-7----7---------7-------|-9----9----9----9----|-9----9----9----9----|
D|-0------------4------------|------------------------|-12---12---12---12---|-12---12---11---11---|
A|---------4----2----0-------|-10---10--------10------|-0----0----0----0----|-0----0----0----0----|
E|---------------------------|------------------------|---------------------|---------------------|


E|----------------------------------|---------------------------------------------|
B|----0-----------------------------|-3---5-3-2-3-2--3--2--0--0-------------------|
G|-2-----2--0--2-------2--------2---|-2-----------2-----------2---2--2--2---------|
D|-4-----------2---4---5------------|-4-----------0-----------0---------0------0--|
A|-5-------------------5----4-------|-----------------------------------2---4--2--|
E|---------------------0------------|-2-----------2-----------3---------3---5-----|


E|--------------------0---------------|---------------------------|-------------------------------|
B|----------------3------3--2---3--2--|-0---------0---3---2---0---|-------------------------------|
G|-2--------2-----2---------2---------|-0----0----0-------0-------|-2---0---2---2----2--------2---|
D|-2--------------0---------0---------|-0----0------------0-------|-5-----------5----2----2-------|
A|-4----0---2--4----------------------|-2----2----2-------2-------|-5-----------5----4----4-------|
E|-3--------------2---------2---------|-2----2----2-------2-------|-0-----------0----5----5-------|


E|-2---0---0------------------------|-2--------------------------------------|----------------------------3---|
B|-3-----------3-----3--------------|----5--5--3--3---------3--------2-3-2-3-|-0--------------0---0---3-------|
G|-2-------2---------2--------2-----|-2-----------2---------2----2-----------|------------------------0-------|
D|-0-------0---0--2--4----4---0--2--|-4-----------4------2--4----4-----------|-4----4---0--2--4-------0-------|
A|-------------------4----4---------|-2-----------2---5-----0----0-----------|-5----5---------5-------2-------|
E|----------------------------------|----------------------------------------|-3----3---------3-------3-------|


E|-3---2---2-------------------7--|-7---------------7--------5---|-5--------------3---2---|
B|-------------------0----3-------|-8---10--8---7---5------------|-5----5-----------------|
G|-2-------2---0--2--2----2-------|-7-------7-------6----6-------|-6----6----2----0-------|
D|-0-------4---------4----4-------|-----------------5----5-------|-4----4----0----0-------|
A|---------4---------2----0-------|-10--10--10-------------------|-----------2----2-------|
E|--------------------------------|------------------------------|-----------3----3-------|


E|-0-------------------|---------------------------|-3----2----0----0-------|-----------------|
B|----------------7----|-7-----------------7---3---|--------------------3---|-3---------------|
G|-0----0----2----6----|-6-------------------------|-0----------------------|-2---------------|
D|-0----0----2---------|-4----4-------4----4-------|-0----0----2----2-------|-4----------7----|
A|-0----0----4----7----|----------7---5----5-------|-2----2----5----4-------|-5-----0---------|
E|-----------5----5----|-6----6-------7----5-------|-3----3----5----5-------|-----------------|


E|-5--7--5--------------------------|-10--12109-109--10-9--7--7-------------------|
B|-7--------8--10------10-------10--|-----------------------------10-10-10--------|
G|-7-------------------7----0-------|-7-----------7-----------7---------7---6--7--|
D|-0-------------------7----11------|-7-----------7-----------7---------7---7--9--|
A|-------------7---9---10---12------|-9-----------9-----------10--------10--------|
E|---------------------0----0-------|---------------------------------------------|


E|----------------10--12-10-9---10-9--|-7---------7---10--9---7---|-------------------------------|
B|-10-------10------------------------|-3----0----0-------0-------|-10--8---10--10---10-------10--|
G|-9----9---------7---------7---------|-0----7----7-------7-------|-7-----------0----9----9-------|
D|-11---11--9--11-7---------7---------|-4----5----5-------5-------|-7-----------12---11---11------|
A|-10---10--------9---------9---------|---------------------------|-10----------12---0----0-------|
E|------------------------------------|---------------------------|-0-----------0-----------------|


E|-14--12--12--10--10-------------|-14-12-12-10-10--------10-------9-109-10|-7--------------7---7---10--15--|
B|-10------10------7----7---10----|-10----------10-------------7-----------|-7----7---------7---------------|
G|-11------11------7----7---------|-------------11-----9--11---7-----------|-7----7---7--9--7-------7-------|
D|-0-------0----------------------|-9-----------9---12---------------------|-9----9---------9-------9-------|
A|--------------------------------|-----------------------0----0-----------|-10---10--------10------10------|
E|-----------------9----9---10-12-|----------------------------------------|--------------------------------|


E|-15--14--14-------------10---7--|-7------------------------5---|-5--------------15--14--|
B|---------10-----10-12---10------|-----10--8---7---5----5-------|-5----5-----------------|
G|-11----------12----11---11------|-7---------------6----6-------|-6----6----7------------|
D|-12------11--------12-----------|-9---------------5----5-------|-4----4----7------------|
A|------------------------0-------|-10---------------------------|-----------10-----------|
E|--------------------------------|------------------------------|------------------------|


E|-12-------------14---|-14----------------14---|------14------15---14---|-12--------12-------10--|
B|-----------10--------|-------------------0----|------0---15--12--------|------------------------|
G|-12---12---9---------|-11---11---11------11---|-11---11------0---------|-9----9----9----9-------|
D|-12---12---11---11---|-11---14-------14--12---|-12---12------12--------|-12---12---11---11------|
A|-0----0----0----12---|-13---------------------|------0-----------------|-0----0----0----0-------|
E|---------------------|------------------------|------------------------|------------------------|


E|-10-----|
B|-10-----|
G|-11-----|
D|-0------|
A|--------|
E|--------|





Go to the begining