Traumerei by Robert Schumann Tablature Preview
Play this tab!
E|-------------|-----------------------0---|-3---8---8-----7---5---|-3---8-------0---1---5-----------|
B|-------------|-1---------1---0---1-------|-----------------------|-1-------3-------------------0---|
G|-------------|---------------------------|---------5-------------|---------4---------------5---7---|
D|--------5----|------2--------------------|---------7-----5---3---|-2-------3---2---0-------5-------|
G|-------------|------0--------------------|---------5-------------|-0-------0---0---0-----------0---|
C|-------------|-0----0--------------------|---------5-------------|-------------------------4-------|


E|---------------------------------|-----------------------0---|-3---12--12---12--10--8---7---|
B|-5---8---3-----------------------|-1---------1---0---1-------|---------0--------------------|
G|-5-------4---------------0-------|---------------------------|---------7--------------------|
D|-5-------5-----------------------|------2--------------------|--------------------------9---|
G|-5-------0---2---0---------------|------0--------------------|---------9--------------------|
C|---------------------5---2---4---|-0----0--------------------|---------8--------------------|


E|-8---12--5---8---7---------------|---------7-------------------------|-----------------------0---|
B|---------------------8-------11--|-10-------------8--8---------------|-1---------1---0---1-------|
G|-9-----------8---7-----------12--|-11--9-------------0-----------0---|---------------------------|
D|-10----------------------9---11--|-10----------------9---------------|------2--------------------|
G|-------------5---7---7---7---9---|-7-------9---11----0---------------|------0--------------------|
C|-9-------------------------------|-----------------------9---5---2---|-0----0--------------------|


E|-3---8---8-----7---5---|-3---8-------0---1---5-----------|---------------------------------|
B|-----------------------|-1-------3-------------------0---|-5---8---3-----------------------|
G|---------5-------------|---------4---------------5---7---|-5-------4---------------0-------|
D|---------7-----5---3---|-2-------3---2---0-------5-------|-5-------5-----------------------|
G|---------5-------------|-0-------0---0---0-----------0---|-5-------0---2---0---------------|
C|---------5-------------|-------------------------4-------|---------------------5---2---4---|


E|-----------------------0---|-3---12--12---12--10--8---7---|-8---12--5---8---7---------------|
B|-1---------1---0---1-------|---------0--------------------|---------------------8-------11--|
G|---------------------------|---------7--------------------|-9-----------8---7-----------12--|
D|------2--------------------|--------------------------9---|-10----------------------9---11--|
G|------0--------------------|---------9--------------------|-------------5---7---7---7---9---|
C|-0----0--------------------|---------8--------------------|-9-------------------------------|


E|---------7-------------------------|-----------------------0---|-3---6---6---------------5---3---|
B|-10-------------8--8---------------|-1---------1---0---1-------|-----6---5-----------2---5---2---|
G|-11--9-------------0-----------0---|---------------------------|-----7---6-------2---------------|
D|-10----------------9---------------|------2--------------------|-------------2-------------------|
G|-7-------9---11----0---------------|------0--------------------|-----0---2---2---2---2-----------|
C|-----------------------9---5---2---|-0----0--------------------|---------------------------------|


E|-----5-------0---1---------------|---------------------------------|-----------------------5---|
B|-6-------3---2-------3-------5---|-3-------------------------------|-6---------6---5---6-------|
G|-7-----------3---2---------------|-----2-------2---------------5---|------5--------------------|
D|-0---------------0-------3---5---|-3-------0---5---3---0-----------|------7--------------------|
G|-------------0---2---2---2---3---|-2-----------2-------------------|------5--------------------|
C|---------------------------------|-------------------------2---4---|-5----5--------------------|


E|-8---13--13--------------12--10--|-8---12--10--7---8---------------|-------------0---0-----------------|
B|-----10--9-----------9---12--9---|-------------6-------10------12--|-10----------3---1-------3---------|
G|-----------------9---------------|-----------------9---------------|-----9-------4---2-------4---------|
D|-----0-------9-------------------|-7-----------6-----------7---12--|-10------7---6-------3---5------5--|
G|---------9-----------------------|-------------7---9-----------10--|-9---9-----------------------0-----|
C|---------------------------------|---------------------------------|-----------------------------------|


E|-----------------------0---|-3---8---5-----7---5---|-3---8-------0---1---5-----------|
B|-1---------1---0---1-------|-----------------------|-1-------3-------------------0---|
G|---------------------------|---------5-------------|---------4---------------5---7---|
D|------2--------------------|---------7-----5---3---|-2-------3---2---0-------5-------|
G|------0--------------------|---------5-------------|-0-------0---0---0-----------0---|
C|-0----0--------------------|---------5-------------|-------------------------4-------|


E|---------------------------------|-----------------------0---|-3---12--12---12--10--8---5---|
B|-5---8---3-----------------------|-1---------1---0---1-------|---------7--------------------|
G|-5-------4---------------0-------|---------------------------|---------7--------------------|
D|-5-------5-----------------------|------2--------------------|---------10-------------------|
G|-5-------0---2---0---------------|------0--------------------|---------7--------------------|
C|---------------------5---2---4---|-0----0--------------------|------------------------------|


E|-3---8-------0-------5-------0---|-1---5-----------------|
B|-1-------3-------6-----------2---|-3---------------------|
G|-0-------4---------------7-------|---------2-------------|
D|---------3---2---0---0---7---2---|-0-------3---9---10----|
G|-0-------0---------------7---2---|---------0---0---9-----|
C|-------------------------5-------|-----------------0-----|





Go to the begining