One Day by Waltari Tablature Preview
Play this tab!
E|--------|---------------------------|------------------------|---------------------------|
B|--------|---------------------------|------------------------|---------------------------|
G|--------|-7---9----7---9----7---9---|-9---7---9----7----9----|-7---9----7---9----7---9---|
D|--------|---------------------------|------------------------|---------------------------|
A|--------|---------------------------|------------------------|---------------------------|
E|--------|---------------------------|------------------------|---------------------------|


E|------------------------|---------------------------|------------------------|---------------------------|
B|------------------------|---------------------------|------------------------|---------------------------|
G|-9---7---9----7----9----|-7---9----7---9----7---9---|-9---7---9----7----9----|-7---9----7---9----7---9---|
D|------------------------|---------------------------|------------------------|---------------------------|
A|------------------------|---------------------------|------------------------|---------------------------|
E|------------------------|---------------------------|------------------------|---------------------------|


E|------------------------|---------------------------|------------------------|---------------------------|
B|------------------------|---------------------------|------------------------|---------------------------|
G|-9---7---9----7----9----|-7---9----7---9----7---9---|-9---7---9----7----9----|-7---9----7---9----7---9---|
D|------------------------|---------------------------|------------------------|---------------------------|
A|------------------------|---------------------------|------------------------|---------------------------|
E|------------------------|---------------------------|------------------------|---------------------------|


E|------------------------|---------------------------|------------------------|---------------------------|
B|------------------------|---------------------------|------------------------|---------------------------|
G|-9---7---9----7----9----|-7---9----7---9----7---9---|-9---7---9----7----9----|-7---9----7---9----7---9---|
D|------------------------|---------------------------|------------------------|---------------------------|
A|------------------------|---------------------------|------------------------|---------------------------|
E|------------------------|---------------------------|------------------------|---------------------------|


E|------------------------|---------------------------|------------------------|---------------------------|
B|------------------------|---------------------------|------------------------|---------------------------|
G|-9---7---9----7----9----|-7---9----7---9----7---9---|-9---7---9----7----9----|-7---9----7---9----7---9---|
D|------------------------|---------------------------|------------------------|---------------------------|
A|------------------------|---------------------------|------------------------|---------------------------|
E|------------------------|---------------------------|------------------------|---------------------------|


E|------------------------|---------------------------|------------------------|---------------------------|
B|------------------------|---------------------------|------------------------|---------------------------|
G|-9---7---9----7----9----|-7---9----7---9----7---9---|-9---7---9----7----9----|-7---9----7---9----7---9---|
D|------------------------|---------------------------|------------------------|---------------------------|
A|------------------------|---------------------------|------------------------|---------------------------|
E|------------------------|---------------------------|------------------------|---------------------------|


E|------------------------|---------------------------|------------------------|---------------------------|
B|------------------------|---------------------------|------------------------|---------------------------|
G|-9---7---9----7----9----|-7---9----7---9----7---9---|-9---7---9----7----9----|-7---9----7---9----7---9---|
D|------------------------|---------------------------|------------------------|---------------------------|
A|------------------------|---------------------------|------------------------|---------------------------|
E|------------------------|---------------------------|------------------------|---------------------------|


E|------------------------|---------------------------|------------------------|---------------------------|
B|------------------------|---------------------------|------------------------|---------------------------|
G|-9---7---9----7----9----|-7---9----7---9----7---9---|-9---7---9----7----9----|-7---9----7---9----7---9---|
D|------------------------|---------------------------|------------------------|---------------------------|
A|------------------------|---------------------------|------------------------|---------------------------|
E|------------------------|---------------------------|------------------------|---------------------------|


E|------------------------------|-----------------|--------|--------|--------|--------|
B|-----11--13--14--13--11-------|-17--------------|--------|--------|--------|--------|
G|-9-----------------------12---|-----------------|--------|--------|--------|--------|
D|------------------------------|-----------------|--------|--------|--------|--------|
A|------------------------------|-----------------|--------|--------|--------|--------|
E|------------------------------|-----------------|--------|--------|--------|--------|


E|--------|--------|--------|--------|--------|--------|--------|--------|--------|
B|--------|--------|--------|--------|--------|--------|--------|--------|--------|
G|--------|--------|--------|--------|--------|--------|--------|--------|--------|
D|--------|--------|--------|--------|--------|--------|--------|--------|--------|
A|--------|--------|--------|--------|--------|--------|--------|--------|--------|
E|--------|--------|--------|--------|--------|--------|--------|--------|--------|


E|--------|------------------------------|---------------------------------|---------------------------------|
B|--------|------------------------------|-8---8---8---8---8---8---8---8---|-8---8---8---8---8---8---8---8---|
G|--------|------------------------------|-9---9---9---9---9---9---9---9---|-9---9---9---9---9---9---9---9---|
D|--------|------------------------------|-9---9---9---9---9---9---9---9---|-9---9---9---9---9---9---9---9---|
A|--------|------------------------------|-7---7---7---7---7---7---7---7---|-7---7---7---7---7---7---7---7---|
E|--------|-----3---5---6---5---3---0----|---------------------------------|---------------------------------|


E|---------------------------------|---------------------------------|---------------------------------|
B|-7---7---7---7---7---7---7---7---|-7---7---7---7---7---7---7---7---|-5---5---5---5---5---5---5---5---|
G|-7---7---7---7---7---7---7---7---|-7---7---7---7---7---7---7---7---|-5---5---5---5---5---5---5---5---|
D|-7---7---7---7---7---7---7---7---|-7---7---7---7---7---7---7---7---|-5---5---5---5---5---5---5---5---|
A|-5---5---5---5---5---5---5---5---|-5---5---5---5---5---5---5---5---|-3---3---3---3---3---3---3---3---|
E|---------------------------------|---------------------------------|---------------------------------|


E|---------------------------------|------------------------|------------------------|
B|-5---5---5---5---5---5---5---5---|------8----8---8----8---|------7----7---7----7---|
G|-5---5---5---5---5---5---5---5---|------9----9---9----9---|------7----7---7----7---|
D|-5---5---5---5---5---5---5---5---|-9----9----9---9----9---|-7----7----7---7----7---|
A|-3---3---3---3---3---3---3---3---|-7----------------------|-5----------------------|
E|---------------------------------|------------------------|------------------------|


E|---------------------------------|---------------------------------|---------------------------------|
B|-8---8---8---8---8---8---8---8---|-8---8---8---8---8---8---8---8---|-7---7---7---7---7---7---7---7---|
G|-9---9---9---9---9---9---9---9---|-9---9---9---9---9---9---9---9---|-7---7---7---7---7---7---7---7---|
D|-9---9---9---9---9---9---9---9---|-9---9---9---9---9---9---9---9---|-7---7---7---7---7---7---7---7---|
A|-7---7---7---7---7---7---7---7---|-7---7---7---7---7---7---7---7---|-5---5---5---5---5---5---5---5---|
E|---------------------------------|---------------------------------|---------------------------------|


E|---------------------------------|---------------------------------|---------------------------------|
B|-7---7---7---7---7---7---7---7---|-5---5---5---5---5---5---5---5---|-5---5---5---5---5---5---5---5---|
G|-7---7---7---7---7---7---7---7---|-5---5---5---5---5---5---5---5---|-5---5---5---5---5---5---5---5---|
D|-7---7---7---7---7---7---7---7---|-5---5---5---5---5---5---5---5---|-5---5---5---5---5---5---5---5---|
A|-5---5---5---5---5---5---5---5---|-3---3---3---3---3---3---3---3---|-3---3---3---3---3---3---3---3---|
E|---------------------------------|---------------------------------|---------------------------------|


E|------------------------|------------------------|--------|--------|--------|--------|
B|------8----8---8----8---|------7----7---7----7---|--------|--------|--------|--------|
G|------9----9---9----9---|------7----7---7----7---|--------|--------|--------|--------|
D|-9----9----9---9----9---|-7----7----7---7----7---|--------|--------|--------|--------|
A|-7----------------------|-5----------------------|--------|--------|--------|--------|
E|------------------------|------------------------|--------|--------|--------|--------|


E|--------|--------|--------|--------|--------|--------|--------|--------|--------|
B|--------|--------|--------|--------|--------|--------|--------|--------|--------|
G|--------|--------|--------|--------|--------|--------|--------|--------|--------|
D|--------|--------|--------|--------|--------|--------|--------|--------|--------|
A|--------|--------|--------|--------|--------|--------|--------|--------|--------|
E|--------|--------|--------|--------|--------|--------|--------|--------|--------|


E|--------|--------|------------------------------|---------------------------------|
B|--------|--------|------------------------------|-8---8---8---8---8---8---8---8---|
G|--------|--------|------------------------------|-9---9---9---9---9---9---9---9---|
D|--------|--------|------------------------------|-9---9---9---9---9---9---9---9---|
A|--------|--------|------------------------------|-7---7---7---7---7---7---7---7---|
E|--------|--------|-----3---5---6---5---3---0----|---------------------------------|


E|---------------------------------|---------------------------------|---------------------------------|
B|-8---8---8---8---8---8---8---8---|-7---7---7---7---7---7---7---7---|-7---7---7---7---7---7---7---7---|
G|-9---9---9---9---9---9---9---9---|-7---7---7---7---7---7---7---7---|-7---7---7---7---7---7---7---7---|
D|-9---9---9---9---9---9---9---9---|-7---7---7---7---7---7---7---7---|-7---7---7---7---7---7---7---7---|
A|-7---7---7---7---7---7---7---7---|-5---5---5---5---5---5---5---5---|-5---5---5---5---5---5---5---5---|
E|---------------------------------|---------------------------------|---------------------------------|


E|---------------------------------|---------------------------------|------------------------|
B|-5---5---5---5---5---5---5---5---|-5---5---5---5---5---5---5---5---|------8----8---8----8---|
G|-5---5---5---5---5---5---5---5---|-5---5---5---5---5---5---5---5---|------9----9---9----9---|
D|-5---5---5---5---5---5---5---5---|-5---5---5---5---5---5---5---5---|-9----9----9---9----9---|
A|-3---3---3---3---3---3---3---3---|-3---3---3---3---3---3---3---3---|-7----------------------|
E|---------------------------------|---------------------------------|------------------------|


E|------------------------|---------------------------------|---------------------------------|
B|------7----7---7----7---|-8---8---8---8---8---8---8---8---|-8---8---8---8---8---8---8---8---|
G|------7----7---7----7---|-9---9---9---9---9---9---9---9---|-9---9---9---9---9---9---9---9---|
D|-7----7----7---7----7---|-9---9---9---9---9---9---9---9---|-9---9---9---9---9---9---9---9---|
A|-5----------------------|-7---7---7---7---7---7---7---7---|-7---7---7---7---7---7---7---7---|
E|------------------------|---------------------------------|---------------------------------|


E|---------------------------------|---------------------------------|---------------------------------|
B|-7---7---7---7---7---7---7---7---|-7---7---7---7---7---7---7---7---|-5---5---5---5---5---5---5---5---|
G|-7---7---7---7---7---7---7---7---|-7---7---7---7---7---7---7---7---|-5---5---5---5---5---5---5---5---|
D|-7---7---7---7---7---7---7---7---|-7---7---7---7---7---7---7---7---|-5---5---5---5---5---5---5---5---|
A|-5---5---5---5---5---5---5---5---|-5---5---5---5---5---5---5---5---|-3---3---3---3---3---3---3---3---|
E|---------------------------------|---------------------------------|---------------------------------|


E|---------------------------------|------------------------|------------------------|
B|-5---5---5---5---5---5---5---5---|------8----8---8----8---|------7----7---7----7---|
G|-5---5---5---5---5---5---5---5---|------9----9---9----9---|------7----7---7----7---|
D|-5---5---5---5---5---5---5---5---|-9----9----9---9----9---|-7----7----7---7----7---|
A|-3---3---3---3---3---3---3---3---|-7----------------------|-5----------------------|
E|---------------------------------|------------------------|------------------------|


E|---------------------------------|---------------------------------|---------------------------------|
B|-8---8---8---8---8---8---8---8---|-8---8---8---8---8---8---8---8---|-7---7---7---7---7---7---7---7---|
G|-9---9---9---9---9---9---9---9---|-9---9---9---9---9---9---9---9---|-7---7---7---7---7---7---7---7---|
D|-9---9---9---9---9---9---9---9---|-9---9---9---9---9---9---9---9---|-7---7---7---7---7---7---7---7---|
A|-7---7---7---7---7---7---7---7---|-7---7---7---7---7---7---7---7---|-5---5---5---5---5---5---5---5---|
E|---------------------------------|---------------------------------|---------------------------------|


E|---------------------------------|---------------------------------|---------------------------------|
B|-7---7---7---7---7---7---7---7---|-5---5---5---5---5---5---5---5---|-5---5---5---5---5---5---5---5---|
G|-7---7---7---7---7---7---7---7---|-5---5---5---5---5---5---5---5---|-5---5---5---5---5---5---5---5---|
D|-7---7---7---7---7---7---7---7---|-5---5---5---5---5---5---5---5---|-5---5---5---5---5---5---5---5---|
A|-5---5---5---5---5---5---5---5---|-3---3---3---3---3---3---3---3---|-3---3---3---3---3---3---3---3---|
E|---------------------------------|---------------------------------|---------------------------------|


E|------------------------|------------------------|-------------|-----------------|
B|------8----8---8----8---|------7----7---7----7---|-12----------|-10----8----8----|
G|------9----9---9----9---|------7----7---7----7---|-------9-----|-----------------|
D|-9----9----9---9----9---|-7----7----7---7----7---|-------------|-----------------|
A|-7----------------------|-5----------------------|-------------|-----------------|
E|------------------------|------------------------|-------------|-----------------|


E|-------------|-----------------|-------------|-----------------|--------|--------|
B|-7-----------|-7-----8----8----|-------------|-----------------|--------|-8------|
G|-------7-----|-----------------|-9-----------|-9-----11---11---|-12-----|--------|
D|-------------|-----------------|-------10----|-----------------|--------|--------|
A|-------------|-----------------|-------------|-----------------|--------|--------|
E|-------------|-----------------|-------------|-----------------|--------|--------|


E|--------|--------|--------|--------|--------|--------|--------|--------|--------|
B|-20-----|--------|--------|--------|--------|--------|--------|--------|--------|
G|--------|--------|--------|--------|--------|--------|--------|--------|--------|
D|--------|--------|--------|--------|--------|--------|--------|--------|--------|
A|--------|--------|--------|--------|--------|--------|--------|--------|--------|
E|--------|--------|--------|--------|--------|--------|--------|--------|--------|


E|--------|--------|--------|--------|--------|--------|--------|---------------------------|
B|--------|--------|--------|--------|--------|--------|--------|---------------------------|
G|--------|--------|--------|--------|--------|--------|--------|-7---9----7---9----7---9---|
D|--------|--------|--------|--------|--------|--------|--------|---------------------------|
A|--------|--------|--------|--------|--------|--------|--------|---------------------------|
E|--------|--------|--------|--------|--------|--------|--------|---------------------------|


E|------------------------|---------------------------|------------------------|---------------------------|
B|------------------------|---------------------------|------------------------|---------------------------|
G|-9---7---9----7----9----|-7---9----7---9----7---9---|-9---7---9----7----9----|-7---9----7---9----7---9---|
D|------------------------|---------------------------|------------------------|---------------------------|
A|------------------------|---------------------------|------------------------|---------------------------|
E|------------------------|---------------------------|------------------------|---------------------------|


E|------------------------|---------------------------|------------------------|---------------------------|
B|------------------------|---------------------------|------------------------|---------------------------|
G|-9---7---9----7----9----|-7---9----7---9----7---9---|-9---7---9----7----9----|-7---9----7---9----7---9---|
D|------------------------|---------------------------|------------------------|---------------------------|
A|------------------------|---------------------------|------------------------|---------------------------|
E|------------------------|---------------------------|------------------------|---------------------------|


E|------------------------|---------------------------|------------------------|---------------------------|
B|------------------------|---------------------------|------------------------|---------------------------|
G|-9---7---9----7----9----|-7---9----7---9----7---9---|-9---7---9----7----9----|-7---9----7---9----7---9---|
D|------------------------|---------------------------|------------------------|---------------------------|
A|------------------------|---------------------------|------------------------|---------------------------|
E|------------------------|---------------------------|------------------------|---------------------------|


E|------------------------|---------------------------|------------------------|---------------------------------|
B|------------------------|---------------------------|------------------------|-8---8---8---8---8---8---8---8---|
G|-9---7---9----7----9----|-7---9----7---9----7---9---|-9---7---9----7----9----|-9---9---9---9---9---9---9---9---|
D|------------------------|---------------------------|------------------------|-9---9---9---9---9---9---9---9---|
A|------------------------|---------------------------|------------------------|-7---7---7---7---7---7---7---7---|
E|------------------------|---------------------------|------------------------|---------------------------------|


E|---------------------------------|---------------------------------|---------------------------------|
B|-8---8---8---8---8---8---8---8---|-7---7---7---7---7---7---7---7---|-7---7---7---7---7---7---7---7---|
G|-9---9---9---9---9---9---9---9---|-7---7---7---7---7---7---7---7---|-7---7---7---7---7---7---7---7---|
D|-9---9---9---9---9---9---9---9---|-7---7---7---7---7---7---7---7---|-7---7---7---7---7---7---7---7---|
A|-7---7---7---7---7---7---7---7---|-5---5---5---5---5---5---5---5---|-5---5---5---5---5---5---5---5---|
E|---------------------------------|---------------------------------|---------------------------------|


E|---------------------------------|---------------------------------|------------------------|
B|-5---5---5---5---5---5---5---5---|-5---5---5---5---5---5---5---5---|------8----8---8----8---|
G|-5---5---5---5---5---5---5---5---|-5---5---5---5---5---5---5---5---|------9----9---9----9---|
D|-5---5---5---5---5---5---5---5---|-5---5---5---5---5---5---5---5---|-9----9----9---9----9---|
A|-3---3---3---3---3---3---3---3---|-3---3---3---3---3---3---3---3---|-7----------------------|
E|---------------------------------|---------------------------------|------------------------|


E|------------------------|---------------------------------|---------------------------------|
B|------7----7---7----7---|-8---8---8---8---8---8---8---8---|-8---8---8---8---8---8---8---8---|
G|------7----7---7----7---|-9---9---9---9---9---9---9---9---|-9---9---9---9---9---9---9---9---|
D|-7----7----7---7----7---|-9---9---9---9---9---9---9---9---|-9---9---9---9---9---9---9---9---|
A|-5----------------------|-7---7---7---7---7---7---7---7---|-7---7---7---7---7---7---7---7---|
E|------------------------|---------------------------------|---------------------------------|


E|---------------------------------|---------------------------------|---------------------------------|
B|-7---7---7---7---7---7---7---7---|-7---7---7---7---7---7---7---7---|-5---5---5---5---5---5---5---5---|
G|-7---7---7---7---7---7---7---7---|-7---7---7---7---7---7---7---7---|-5---5---5---5---5---5---5---5---|
D|-7---7---7---7---7---7---7---7---|-7---7---7---7---7---7---7---7---|-5---5---5---5---5---5---5---5---|
A|-5---5---5---5---5---5---5---5---|-5---5---5---5---5---5---5---5---|-3---3---3---3---3---3---3---3---|
E|---------------------------------|---------------------------------|---------------------------------|


E|---------------------------------|------------------------|------------------------|
B|-5---5---5---5---5---5---5---5---|------8----8---8----8---|------7----7---7----7---|
G|-5---5---5---5---5---5---5---5---|------9----9---9----9---|------7----7---7----7---|
D|-5---5---5---5---5---5---5---5---|-9----9----9---9----9---|-7----7----7---7----7---|
A|-3---3---3---3---3---3---3---3---|-7----------------------|-5----------------------|
E|---------------------------------|------------------------|------------------------|


E|---------------------------------|---------------------------------|---------------------------------|
B|-8---8---8---8---8---8---8---8---|-8---8---8---8---8---8---8---8---|-7---7---7---7---7---7---7---7---|
G|-9---9---9---9---9---9---9---9---|-9---9---9---9---9---9---9---9---|-7---7---7---7---7---7---7---7---|
D|-9---9---9---9---9---9---9---9---|-9---9---9---9---9---9---9---9---|-7---7---7---7---7---7---7---7---|
A|-7---7---7---7---7---7---7---7---|-7---7---7---7---7---7---7---7---|-5---5---5---5---5---5---5---5---|
E|---------------------------------|---------------------------------|---------------------------------|


E|---------------------------------|---------------------------------|---------------------------------|
B|-7---7---7---7---7---7---7---7---|-5---5---5---5---5---5---5---5---|-5---5---5---5---5---5---5---5---|
G|-7---7---7---7---7---7---7---7---|-5---5---5---5---5---5---5---5---|-5---5---5---5---5---5---5---5---|
D|-7---7---7---7---7---7---7---7---|-5---5---5---5---5---5---5---5---|-5---5---5---5---5---5---5---5---|
A|-5---5---5---5---5---5---5---5---|-3---3---3---3---3---3---3---3---|-3---3---3---3---3---3---3---3---|
E|---------------------------------|---------------------------------|---------------------------------|


E|------------------------|------------------------|---------------------------------|
B|------8----8---8----8---|------7----7---7----7---|-8---8---8---8---8---8---8---8---|
G|------9----9---9----9---|------7----7---7----7---|-9---9---9---9---9---9---9---9---|
D|-9----9----9---9----9---|-7----7----7---7----7---|-9---9---9---9---9---9---9---9---|
A|-7----------------------|-5----------------------|-7---7---7---7---7---7---7---7---|
E|------------------------|------------------------|---------------------------------|


E|---------------------------------|---------------------------------|---------------------------------|
B|-8---8---8---8---8---8---8---8---|-7---7---7---7---7---7---7---7---|-7---7---7---7---7---7---7---7---|
G|-9---9---9---9---9---9---9---9---|-7---7---7---7---7---7---7---7---|-7---7---7---7---7---7---7---7---|
D|-9---9---9---9---9---9---9---9---|-7---7---7---7---7---7---7---7---|-7---7---7---7---7---7---7---7---|
A|-7---7---7---7---7---7---7---7---|-5---5---5---5---5---5---5---5---|-5---5---5---5---5---5---5---5---|
E|---------------------------------|---------------------------------|---------------------------------|


E|---------------------------------|---------------------------------|------------------------|
B|-5---5---5---5---5---5---5---5---|-5---5---5---5---5---5---5---5---|------8----8---8----8---|
G|-5---5---5---5---5---5---5---5---|-5---5---5---5---5---5---5---5---|------9----9---9----9---|
D|-5---5---5---5---5---5---5---5---|-5---5---5---5---5---5---5---5---|-9----9----9---9----9---|
A|-3---3---3---3---3---3---3---3---|-3---3---3---3---3---3---3---3---|-7----------------------|
E|---------------------------------|---------------------------------|------------------------|


E|------------------------|---------------------------|------------------------|-------------|
B|------7----7---7----7---|---------------------------|------------------------|-------------|
G|------7----7---7----7---|-7---9----7---9----7---9---|-----7---9----7----9----|-------------|
D|-7----7----7---7----7---|-7---9----7---9----7---9---|-9---7---9----7----9----|-------------|
A|-5----------------------|-5---7----5---7----5---7---|-7---5---7----5----7----|-------------|
E|------------------------|---------------------------|------------------------|-------------|


E|-------------|
B|-------------|
G|-------------|
D|-------------|
A|-------------|
E|-------------|





Go to the begining