Wishful Thinking by Earl Klugh Tablature Preview
Play this tab!
E|-------------0-------------------|-------------0-------------|-----4---5---4-------2---4---2---|
B|-----------------0-------0-------|-----------------0---------|---------------------------------|
G|-1---2---1-----------1-------2---|-2-------2------------2----|-----4---6---4-------2---4---2---|
D|---------------------------------|-----2---------------------|-0-------------------------------|
A|-0-------------------------------|---------------------------|---------------------------------|
E|---------------------------------|-2-------------------------|---------------------------------|


E|-----0---2---0---0---------------|-------------0-------------------|-------------0-------------|
B|---------------------3---3-------|-----------------0-------0-------|-----------------0---------|
G|-----1---2---1---1---4---4-------|-1---2---1-----------1-------2---|-2-------2------------2----|
D|---------------------------------|---------------------------------|-----2---------------------|
A|---------------------------------|-0-------------------------------|---------------------------|
E|-0-----------------------2---4---|---------------------------------|-2-------------------------|


E|-----4---5---4-------2---4---2---|-----0---2---0---0------------|----------------0-------|
B|---------------------------------|---------------------3---3----|-2---------2--------0---|
G|-----4---6---4-------2---4---2---|-----1---2---1---1---4---4----|-2----------------------|
D|-0-------------------------------|------------------------------|-------2----------------|
A|---------------------------------|------------------------------|-0----------------------|
E|---------------------------------|-0----------------------------|------------------------|


E|---------------------0-----------|---------------------------------|---------------------------------|
B|-0-----------------------0-------|-------------2---2-----------0---|-0-------------------------------|
G|-----2---2---2---2-----------2---|---------2-----------2---2-------|-------------2---1---------------|
D|---------------------------------|-----4---------------------------|---------2-----------2-----------|
A|---------------------------------|-2-------------------------------|-----2---------------------------|
E|-2-------------------------------|---------------------------------|-0-----------------------2---4---|


E|-------------2---2---0---0-------|---------------------------|-----4---5---4-------2---4---2---|
B|---------2-----------------------|---------------------------|---------------------------------|
G|-----------------------------4---|-4---2---4-------2----4----|-----4---6---4-------2---6---2---|
D|-----2---------------------------|-------------4-------------|-0-------------------------------|
A|-0-------------------------------|---------------------------|---------------------------------|
E|---------------------------------|-2-------------------------|---------------------------------|


E|-----0---2---0---0---------------|---------------------------------|---------------------------------|
B|---------------------3---3---2---|-2-----------2---2-------2---3---|-3---2---2---2---2-----------0---|
G|-----1---2---1---1---4---4-------|---------4-----------------------|-----4---4---4---4---------------|
D|---------------------------------|-----4---------------4-----------|---------------------3---3-------|
A|---------------------------------|-4-----------------------4---4---|-4-------------------------------|
E|-0-------------------------------|---------------------------------|---------------------------------|


E|-----5---2-----------------------|-----------------------|-------------0---0---2---2-------|
B|-------------0---0---------------|-----------------2-----|---------2-------------------0---|
G|---------------------4-------2---|-2-----------2---------|-------------2---2---------------|
D|-------------------------4-------|---------1-------------|-----1---------------------------|
A|---------------------------------|-----2-----------------|-2-------------------------------|
E|-2-------------------------------|-----------------------|---------------------------------|


E|------------------------------|------------0-------|-------------0-------------|
B|-0----------------------------|-------2--------0---|-0---------------0---------|
G|-----2---2--------2---4-------|-2------------------|---------2------------2----|
D|--------------4-----------4---|--------------------|-----2---------------------|
A|------------------------------|-4------------------|---------------------------|
E|-0----------------------------|--------------------|-2-------------------------|


E|-----4---5---4-------2---4---2---|-----0---2---0---0------------|-------------------0-------|
B|---------------------------------|---------------------3---3----|-2---------2-----------0---|
G|-----4---6---4-------2---4---2---|-----1---2---1---1---4---4----|-2-------------2-----------|
D|-0-------------------------------|------------------------------|-------2-------------------|
A|---------------------------------|------------------------------|-0-------------------------|
E|---------------------------------|-0----------------------------|---------------------------|


E|-----------------0---------------|---------------------------------|-----------------2-----------0---|
B|-0-------------------0---2---3---|-3-----------2---2-----------0---|-0-------------------2---3-------|
G|-----2---2---2-------------------|---------2-----------2---2-------|-------------1-------------------|
D|---------------------------------|-----4---------------------------|---------2-----------------------|
A|---------------------------------|-2-------------------------------|-----2---------------------------|
E|-2-------------------------------|---------------------------------|-0-------------------------------|


E|-0-----------2---2---0---0-------|---------------------------|-----4---5---4-------2---4---2---|
B|---------2-------------------0---|-0-------------------------|---------------------------------|
G|---------------------------------|-----2---4-------2----4----|-----4---6---4-------2---4---2---|
D|-----4---------------------------|-------------4-------------|-0-------------------------------|
A|-0-------------------------------|---------------------------|---------------------------------|
E|---------------------------------|-2-------------------------|---------------------------------|


E|-----0---2---0---0---------------|---------------------------------|---------------------------------|
B|---------------------3---3---2---|-2-----------2---2-------2---3---|-3---2---2---2---2---------------|
G|-----1---2---1---1---4---4-------|---------4-----------------------|-----4---4---4---4-------1---2---|
D|---------------------------------|-----4---------------4-----------|---------------------4-----------|
A|---------------------------------|-4-----------------------4---4---|-4-------------------------------|
E|-0-------------------------------|---------------------------------|---------------------------------|


E|-----5---2-----------------------|-----------------------|-------------0---0---2---2-------|
B|---------------------------------|-----------------2-----|---------2-------------------0---|
G|-------------4---4---4-------2---|-2-----------2---------|-------------2---2---------------|
D|-------------------------4-------|---------1-------------|-----1---------------------------|
A|---------------------------------|-----2-----------------|-2-------------------------------|
E|-2-------------------------------|-----------------------|---------------------------------|


E|------------------------------|-----0---0---0---0-------0---0---|-0-------------------0---0----|
B|-0----------------------------|-----2---2---2---2-------2---2---|-2---2---2---3---3------------|
G|-----2---2--------2---4-------|-2---2---2---2---2-------2---2---|-----2---2---4---4------------|
D|--------------4-----------4---|---------------------------------|------------------------------|
A|------------------------------|-0-------0-----------0---0-------|-0-----------2---2---4---4----|
E|-0----------------------------|---------------------------------|------------------------------|


E|-9-----------9---9---10--9---7---|-----4---------------------------|-----7---7---9-------7-------5---|
B|---------7-----------------------|---------5---------------5-------|-----6-----------6---------------|
G|-----7---------------------------|---------------------4-----------|-----6-------------------6-------|
D|-0-------------------------------|-------------6---6-----------6---|-3-------------------------------|
A|---------------------------------|---------------------------------|---------------------------------|
E|---------------------------------|-0-------------------------------|---------------------------------|


E|-5-------------4---4---2---|-2--------------5----|-4---7---7-----------------------|
B|-----------2---------------|-----------3---------|-------------5---5---2---2---5---|
G|------2----2---------------|------2--------------|---------------------2---2-------|
D|---------------------------|-0-------------------|---------------------------------|
A|---------------------------|---------------------|---------------------------------|
E|-2---------2---0---0-------|---------------------|-0-------------------------------|


E|--------------------------------|---------------------0---0----|-9-----------9---9---10--9---7---|
B|-3-----------3--2--0--------2---|-2-----------3---3------------|---------7-----------------------|
G|-----2---2--------------2---2---|-2-----------4---4------------|-----7---------------------------|
D|-0------------------------------|------------------------------|-0-------------------------------|
A|--------------------------------|-----0---0---2---2---4---4----|---------------------------------|
E|--------------------------------|------------------------------|---------------------------------|


E|-----4---------------------------|-----7---7---9-------7-------5---|-5-------------4---4---2---|
B|---------5---------------5-------|-----6-----------6---------------|-----------2---------------|
G|---------------------4-----------|-----6-------------------6-------|------2----2---------------|
D|-------------6---6-----------6---|-3-------------------------------|---------------------------|
A|---------------------------------|---------------------------------|---------------------------|
E|-0-------------------------------|---------------------------------|-2---------2---0---0-------|


E|-2--------------5----|-4---7---7---5---5---12--12---|-10------------7-----------------7-----------------7--------|
B|-----------3---------|------------------------------|------------9-----9-----------9-----9-----------9-----9-----|
G|------2--------------|------------------------------|---------9-----------9-----9-----------9-----9-----------9--|
D|-0-------------------|------------------------------|------9-----------------9-----------------9-----------------|
A|---------------------|------------------------------|------------------------------------------------------------|
E|---------------------|-0----------------------------|-0----------------------------------------------------------|


E|-12-----------------0---|----------------0-------|---------------------0-----------|
B|--------------0---------|-2---------2--------0---|-0-----------------------0-------|
G|------------------------|-2----------------------|-----2---2---2---2-----------2---|
D|----------2-------------|-------2----------------|---------------------------------|
A|------------------------|-0----------------------|---------------------------------|
E|-0----------------------|------------------------|-2-------------------------------|


E|---------------------------------|---------------------------------|-------------2---2---0---0-------|
B|-------------2---2-----------0---|-0-------------------------------|---------2-------------------0---|
G|---------2-----------2---2-------|-------------2---1---------------|---------------------------------|
D|-----4---------------------------|---------2-----------2-----------|-----2---------------------------|
A|-2-------------------------------|-----2---------------------------|-0-------------------------------|
E|---------------------------------|-0-----------------------2---4---|---------------------------------|


E|---------------------------|-----4---5---4-------2---4---2---|-----0---2---0---0---------------|
B|-0-------------------------|---------------------------------|---------------------3---3---2---|
G|-----2---4-------2----4----|-----4---6---4-------2---4---2---|-----1---2---1---1---4---4-------|
D|-------------4-------------|-0-------------------------------|---------------------------------|
A|---------------------------|---------------------------------|---------------------------------|
E|-2-------------------------|---------------------------------|-0-------------------------------|


E|---------------------------------|---------------------------------|-----5---2-----------------------|
B|-2-----------2---2-------2---3---|-3---2---2---2---2-----------0---|---------------------------------|
G|---------4-----------------------|-----4---4---4---4---------------|-------------4---4---4-------2---|
D|-----4---------------4-----------|---------------------3---3-------|-------------------------4-------|
A|-4-----------------------4---4---|-4-------------------------------|---------------------------------|
E|---------------------------------|---------------------------------|-2-------------------------------|


E|-----------------------|-------------0---0---2---2-------|------------------------------|
B|-----------------2-----|---------2-------------------0---|-0----------------------------|
G|-2-----------2---------|-------------2---2---------------|-----2---2--------2---4-------|
D|---------1-------------|-----1---------------------------|--------------4-----------4---|
A|-----2-----------------|-2-------------------------------|------------------------------|
E|-----------------------|---------------------------------|-0----------------------------|


E|-----------------------------0---|-0-------------------0---0----|-9-----------9---9---10--9---7---|
B|-------------2---2-----------2---|-2---2---2---3---3------------|---------7-----------------------|
G|-2-------2-----------2---2-------|-----2---2---4---4------------|-----7---------------------------|
D|-----2---------------------------|------------------------------|-0-------------------------------|
A|-0-------------------------------|-0-----------2---2---4---4----|---------------------------------|
E|---------------------------------|------------------------------|---------------------------------|


E|-----4---------------------------|-----7---7---9-------7-------5---|-5-------------4---4---2---|
B|---------5---------------5-------|-----6-----------6---------------|-----------2---------------|
G|---------------------4-----------|-----6-------------------6-------|------2----2---------------|
D|-------------6---6-----------6---|---------------------------------|---------------------------|
A|---------------------------------|-8-------------------------------|---------------------------|
E|-0-------------------------------|---------------------------------|-2---------2---0---0-------|


E|-2--------------5----|-4---7---7---0---0---------------|--------------------------------|
B|-----------3---------|---------------------2---2---0---|-3-----------3--2--0--------2---|
G|------2--------------|---------------------2---2-------|-----2---2--------------2---2---|
D|-0-------------------|---------------------------------|-0------------------------------|
A|---------------------|---------------------------------|--------------------------------|
E|---------------------|-0-------------------------------|--------------------------------|


E|---------------------0---0----|-9-----------9---9---10--9---7---|-----4---------------------------|
B|-2-----------3---3------------|---------7-----------------------|---------5---------------5-------|
G|-2-----------4---4------------|-----7---------------------------|---------------------4-----------|
D|------------------------------|-0-------------------------------|-------------6---6-----------6---|
A|-----0---0---2---2---4---4----|---------------------------------|---------------------------------|
E|------------------------------|---------------------------------|-0-------------------------------|


E|-----7---7---9-------7-------5---|-5-------------4---4---2---|-2--------------5----|
B|-----6-----------6---------------|-----------2---------------|-----------3---------|
G|-----6-------------------6-------|------2----2---------------|------2--------------|
D|---------------------------------|---------------------------|-0-------------------|
A|-8-------------------------------|---------------------------|---------------------|
E|---------------------------------|-2---------2---0---0-------|---------------------|


E|-4---7---7---5---5---12--12---|-10------------7-----------------7-----------------7--------|
B|------------------------------|------------9-----9-----------9-----9-----------9-----9-----|
G|------------------------------|---------9-----------9-----9-----------9-----9-----------9--|
D|------------------------------|------9-----------------9-----------------9-----------------|
A|------------------------------|------------------------------------------------------------|
E|-0----------------------------|-0----------------------------------------------------------|


E|-----------12--------|-------------------0-------|-----------------0---------------|
B|-0-----12-------0----|-2---------2-----------0---|-0-------------------0---2---3---|
G|---------------------|-2-------------2-----------|-----2---2---2-------------------|
D|---------------------|-------2-------------------|---------------------------------|
A|---------------------|-0-------------------------|---------------------------------|
E|---------------------|---------------------------|-2-------------------------------|


E|---------------------------------|-----------------2-----------0---|-0-----------2---2---0---0-------|
B|-3-----------2---2-----------0---|-0-------------------2---3-------|---------2-------------------0---|
G|---------2-----------2---2-------|-------------1-------------------|---------------------------------|
D|-----4---------------------------|---------2-----------------------|-----4---------------------------|
A|-2-------------------------------|-----2---------------------------|-0-------------------------------|
E|---------------------------------|-0-------------------------------|---------------------------------|


E|---------------------------|-----4---5---4-------2---4---2---|-----0---2---0---0---------------|
B|-0-------------------------|---------------------------------|---------------------3---3---2---|
G|-----2---4-------2----4----|-----4---6---4-------2---4---2---|-----1---2---1---1---4---4-------|
D|-------------4-------------|-0-------------------------------|---------------------------------|
A|---------------------------|---------------------------------|---------------------------------|
E|-2-------------------------|---------------------------------|-0-------------------------------|


E|---------------------------------|---------------------------------|-----5---2-----------------------|
B|-2-----------2---2-------2---3---|-3---2---2---2---2---------------|---------------------------------|
G|---------4-----------------------|-----4---4---4---4-------1---2---|-------------4---4---4-------2---|
D|-----4---------------4-----------|---------------------4-----------|-------------------------4-------|
A|-4-----------------------4---4---|-4-------------------------------|---------------------------------|
E|---------------------------------|---------------------------------|-2-------------------------------|


E|-----------------------|-------------0---0---2---2-------|------------------------------|
B|-----------------2-----|---------2-------------------0---|-0----------------------------|
G|-2-----------2---------|-------------2---2---------------|-----2---2--------2---4-------|
D|---------1-------------|-----1---------------------------|--------------4-----------4---|
A|-----2-----------------|-2-------------------------------|------------------------------|
E|-----------------------|---------------------------------|-0----------------------------|


E|-------0-----|---------5-------------------5-----|----------0---0---5---5-------|
B|-------2-----|-------7---7--------------7--------|------2-------------------0---|
G|-2-----2-----|-----5-------5---------5-----------|------------------------------|
D|-------------|---7-----------7----7--------------|-0----------------------------|
A|-0-----------|-6---------------6-----------------|--------------4---------------|
E|-------------|-----------------------------------|------------------------------|


E|------------------------------|-------7---5---7----|-5---7---5---5-------------------|
B|-0----------------------------|--------------------|---------------------0-----------|
G|-----2---2--------2---4-------|-2------------------|-----------------------------2---|
D|--------------4-----------4---|--------------------|-------------------------4-------|
A|-2----------------------------|-0------------------|-6-------------------------------|
E|--------------0---------------|--------------------|---------------------------------|


E|----------0---0---2---2-------|------------------------------|-------0----------------|
B|------2-------------------0---|-0----------------------------|-----------2---0--------|
G|-2----------------------------|-----2---2--------2---4-------|-2-----------------2----|
D|-0----------------------------|--------------4-----------4---|------------------------|
A|--------------4---------------|-2----------------------------|-0----------------------|
E|------------------------------|--------------0---------------|------------------------|


E|---------5-------------------5-----|----------0---0---2---2-------|------------------------------|
B|-------7---7--------------7--------|------2-------------------0---|-0----------------------------|
G|-----5-------5---------5-----------|------------------------------|-----2---2--------2---4-------|
D|---7-----------7----7--------------|-0----------------------------|--------------4-----------4---|
A|-6---------------6-----------------|--------------4---------------|-2----------------------------|
E|-----------------------------------|------------------------------|--------------0---------------|


E|-------0---------------|-------------0-------------|-----4---5---4-------2---4---2---|
B|---------------0-------|-----------------0---------|---------------------------------|
G|-2---------1-------2---|-2-------2------------2----|-----4---6---4-------2---4---2---|
D|-----------------------|-----2---------------------|-0-------------------------------|
A|-0---------------------|---------------------------|---------------------------------|
E|-----------------------|-2-------------------------|---------------------------------|


E|-----0---2---0---0------------|-------------0-------------------|-------------0-------------|
B|---------------------3---3----|-----------------0-------0-------|-----------------0---------|
G|-----1---2---1---1---4---4----|-1---2---1-----------1-------2---|-2-------2------------2----|
D|------------------------------|---------------------------------|-----2---------------------|
A|------------------------------|-0-------------------------------|---------------------------|
E|-0---------------2-------4----|---------------------------------|-2-------------------------|


E|-----4---5---4-------2---4---2---|-----0---2---0---0---------------|-------------0-------------------|
B|---------------------------------|---------------------3---3-------|-----------------0-------0-------|
G|-----4---6---4-------2---4---2---|-----1---2---1---1---4---4-------|-1---2---1-----------1-------2---|
D|-0-------------------------------|---------------------------------|---------------------------------|
A|---------------------------------|---------------------------------|-0-------------------------------|
E|---------------------------------|-0-----------------------2---4---|---------------------------------|


E|-------------0-------------|-----4---5---4-------2---4---2---|-----0---2---0---0---------------|
B|-----------------0---------|---------------------------------|---------------------3---3-------|
G|-2-------2------------2----|-----4---6---4-------2---4---2---|-----1---2---1---1---4---4-------|
D|-----2---------------------|-0-------------------------------|---------------------------------|
A|---------------------------|---------------------------------|---------------------------------|
E|-2-------------------------|---------------------------------|-0-----------------------2---4---|


E|-------------0-------------------|-------------0-------------|-----4---5---4-------2---4---2---|
B|-----------------0-------0-------|-----------------0---------|---------------------------------|
G|-1---2---1-----------1-------2---|-2-------2------------2----|-----4---6---4-------2---4---2---|
D|---------------------------------|-----2---------------------|-0-------------------------------|
A|-0-------------------------------|---------------------------|---------------------------------|
E|---------------------------------|-2-------------------------|---------------------------------|


E|-----0---2---0---0------------|-0------|
B|---------------------3---3----|-2------|
G|-----1---2---1---1---4---4----|-2------|
D|------------------------------|-2------|
A|------------------------------|-0------|
E|-0----------------------------|--------|





Go to the begining