Toi dua em sang song by Pham Duy Tablature Preview
Play this tab!
E|-3---0---3---2--3--2----|-2-------2---0-------0---|-------------------------|-------------------------|
B|------------------------|-----0-------------------|-3-------3---1---0-------|-------------------------|
G|------------------------|-----------------2-------|-----0---------------2---|-0-----------------------|
D|-2-----------------0----|-0-----------------------|-------------------------|-----4---2---0-----------|
A|------------------------|-------------3-----------|-2-----------0-----------|-----------------3---1---|
E|------------------------|-------------------------|-------------------------|-0-----------------------|


E|-------------------|-------------------------|-0-----------0---0---0---|----------------------|
B|-0-----0---0---0---|-0-------------------0---|-------------0-----------|-4----------------0---|
G|-------2-----------|-------------0-----------|-------------0-----------|----------2-----------|
D|-------1-----------|---------2-------2-------|---------2---------------|------4---------------|
A|-2-----------------|-----2-------------------|-----2-------------------|-2------------2-------|
E|-------------------|-0-----------------------|-0-----------------------|----------------------|


E|-2-----------2---2---2---|-0-----------------------|-3-----------3---3---3---|-2-----------------------|
B|-------------0-----------|---------------------0---|-------------1-----------|-------------1---0-------|
G|---------2---------------|-------------0---2-------|---------0---------------|---------2-----------2---|
D|-----1-------------------|-----2---4---------------|-----2-------------------|-----1-------------------|
A|-2-----------------------|-------------------------|-3-----------------------|-2-----------------------|
E|-------------------------|-0-----------------------|-------------------------|-------------------------|


E|-7-----------3---0---5---|-5-----------------------|-5-------------------3---|-3-----------------------|
B|-------------0-----------|-------------5-----------|-------------7-----------|-------------3-----------|
G|-------------------------|---------5-------5---7---|---------7-------7-------|---------4-------4---5---|
D|---------5---------------|-----7-------------------|-----7-------------------|-----5-------------------|
A|-----7-------------------|-------------------------|-5-----------------------|-------------------------|
E|-0-----------------------|-5-----------------------|-------------------------|-3-----------------------|


E|-3-------------------0---|----------------------|-------------------------|-------------------------|
B|-------------5-----------|-0--------------------|-0-------------------0---|-------------------------|
G|---------5-------5-------|----------2-----------|-------------0-----------|-3-----------------------|
D|-----5-------------------|------1-----------2---|---------2-------2-------|---------2---5---4---2---|
A|-3-----------------------|-2------------2-------|-----2-------------------|-----4-------------------|
E|-------------------------|----------------------|-0-----------------------|-2-----------------------|


E|-3-----------0-------0---|-------------------------|-------------------|-------------0-----------|
B|-----0-----------1-------|-0-------------------1---|-0-----------------|---------0-------0-------|
G|---------5---------------|---------0-------0-------|-----------2---0---|-----0---------------0---|
D|-------------------------|-----2-------2-----------|-------4-----------|-2-----------------------|
A|-0-----------------------|-2-----------------------|-2-----6-----------|-------------------------|
E|-------------------------|-------------------------|-------------------|-0-----------------------|


E|-------------0-----------|-------------0-----------|---------0-------0-------|-------------0-----------|
B|---------0-------0-------|---------0-------0-------|-----0-----------0-------|---------1-------1-------|
G|-----0---------------0---|-----0-------------------|-0-------------------0---|-----2-------------------|
D|-2-----------------------|-2-----------2-------2---|-------------2-----------|-4-----------4-------4---|
A|-------------------------|-------------------------|-------------------------|-------------------------|
E|-0-----------------------|-------------------------|-------------------------|-------------------------|


E|---------0-------0-------|---------0---3---0-------|---------0-------0-------|-------------0-----------|
B|-----1-----------1-------|-----0---------------0---|-----0-----------0-------|---------1-------1-------|
G|-2-------------------2---|-0-----------------------|-------------0-----------|-----0---------------0---|
D|-------------4-----------|-------------------------|-2-------------------2---|-------------------------|
A|-------------------------|-------------------------|-------------------------|-3-----------------------|
E|-------------------------|-------------------------|-------------------------|-------------------------|


E|-------------------------|-------------------------|-0-------------------0---|-------------------------|
B|-1-----------------------|-1-----------1-------1---|-------------1-----------|-3-----------3-----------|
G|-----0-------0-----------|---------2-------2-------|---------0-------0-------|-------------2-------0---|
D|---------2---------------|-----2-------------------|-----2-------------------|---------0-------0-------|
A|-3-----------3---2---0---|-0-----------------------|-------------------------|-----0-------------------|
E|-------------------------|-------------------------|-3-----------------------|-2-----------------------|


E|-------------------------|----------------------|------0---------|----------------|
B|-3-----------0-------3---|-1--------------------|-1----1-----1---|-0--------------|
G|-------------0-------0---|----------------------|-0----0-----0---|----------------|
D|---------0-------0-------|----------2-----------|-2----------2---|-1--------------|
A|-----2-------------------|------3-------3---2---|-0--------------|-2----0---------|
E|-1-----------------------|-0--------------------|----------------|------------2---|


E|-------------------------|-------------------------|-0-----------0---0---0---|----------------------|
B|-0-----------0---0---0---|-0-------------------0---|-------------0-----------|-4----------------0---|
G|-------------0-----------|-------------0-----------|---------0---------------|---------2------------|
D|---------2---------------|---------2-------2-------|-----2-------------------|-----4----------------|
A|-----2-------------------|-----2-------------------|-------------------------|-2-----------2--------|
E|-0-----------------------|-0-----------------------|-0-----------------------|----------------------|


E|-2-----------2---2---2---|-0-----------------------|-3-----------3---3---3---|-2------------------------2--3--5--|
B|-------------0-----------|---------------------0---|-------------1-----------|--------------0--2--4--5-----------|
G|---------2---------------|-------------0---2-------|---------0---------------|----------2------------------------|
D|-----1-------------------|-----2---4---------------|-----2-------------------|------1----------------------------|
A|-2-----------------------|-------------------------|-2-----------------------|-2---------------------------------|
E|-------------------------|-0-----------------------|-------------------------|-----------------------------------|


E|-7-----------3---0---5---|-5-----------------------|-5----------------3---|-3-----------------------|
B|-------------0-----------|-------------5-----------|--------------7-------|-------------3-----------|
G|---------0---------------|---------5-------5---7---|----------7-----------|---------4-------4---5---|
D|-------------------------|-----7-------------------|------7---------------|-----5-------------------|
A|-----7-------------------|-------------------------|-5--------------------|-------------------------|
E|-0-----------------------|-5-----------------------|----------------------|-3-----------------------|


E|-3-----------0-------0---|-------------------------|---------------2---|-0-----------------------|
B|-----0-----------1-------|-0-------------------0---|-------0---4-------|-------------0-------0---|
G|---------5---------------|---------0-------0-------|-------2-----------|---------0-------0-------|
D|-------------------------|-----2-------2-----------|-4-----------------|-----2-------------------|
A|-0-----------------------|-2-----------------------|-2-----------------|-------------------------|
E|-------------------------|-------------------------|-------------------|-0-----------------------|


E|-3---0---3---2--3--2----|-2-------2---0-------0---|-------------------------|-------------------------|
B|------------------------|-----0-------------------|-3-------3---1---0-------|-------------------------|
G|------------------------|-----------------2-------|-----0---------------2---|-0-----------------------|
D|-2-----------------0----|-0-----------------------|-------------------------|-----4---2---0-----------|
A|------------------------|-------------3-----------|-2-----------0-----------|-----------------3---2---|
E|------------------------|-------------------------|-------------------------|-0-----------------------|


E|-0-----------|-------------|
B|-1-----1-----|-------------|
G|-4-----4-----|-------------|
D|-7-----5-----|-------------|
A|-0-----7-----|-------------|
E|-------0-----|-------------|



Go to the begining